Tokio Hotel in Blau

~ Forum Francophone sur le groupe allemand Tokio Hotel ~
 
AccueilAccueil  PortailPortail  CalendrierCalendrier  FAQFAQ  RechercherRechercher  S'enregistrerS'enregistrer  MembresMembres  GroupesGroupes  ConnexionConnexion  

Partagez | 
 

 Rette Mich [Guitare]

Voir le sujet précédent Voir le sujet suivant Aller en bas 
AuteurMessage
Totgeliebt.
Admin-Fondatrice
Admin-Fondatrice
avatar

Nombre de messages : 686
Age : 23
Localisation : Tailly City
Date d'inscription : 25/01/2008

MessageSujet: Rette Mich [Guitare]   Sam 26 Jan - 13:31



Intro:
E|-----------------
H|-----------------
G|--------------------
D|---4--4------------- /x6
A|--4--4--3-2--------- /
E|-2--2-------3333333- /


E|----------------------------------
H|----------------------------------
G|----------7-77-77---------77-7-777-
D|-9-99-99-7-77-77-9-99-99-77-7-777-
A|-9-99-99-5-55-55-9-99-99-55-5-555-
E|-7-77-77----------7-77-77----------

refrain
E|----------------------------------------
H|----------------------------------------
G|-11-11-11-11-7-7-7-7--14-14-14--9-9-9-9---- x3
D|-11-11-11-11-7-7-7-7--14-14-14--9-9-9-9---- /
A|-9 --9 -9 -9 --5-5-5-5--12-12-12--7-7-7-7---- /
E|---------------------------------------- /

E|-------------------------------------|
H|-------------------------------------|
G|-----------77777777-----------77777777-|
D|-99999999-77777777-99999999-77777777-|
A|-99999999-55555555-99999999-55555555-|
E|-77777777-----------77777777----------|


E|---------------------------------
H|---------------------------------
G|---------------5-4----------------
D|-4-4-4-4-4-4--5-4---5-5-5-5-5-5-5- / x4
A|-4-4-4-4-4-4--3-2---5-5-5-5-5-5-5- /
E|-2-2-2-2-2-2--------3-3-3-3-3-3-3- /


E|----------------------------------
H|----------------------------------
G|-----------7-77-77-----------77-7-777-
D|-9-99-99--7-77-77--9-99-99--77-7-777-
A|-9-99-99--5-55-55--9-99-99--55-5-555-
E|-7-77-77-----------7-77-77----------

refrain
E|----------------------------------------
H|----------------------------------------
G|-11-11-11-11--7-7-7-7--14-14-14--9-9-9-9---- 3x
D|-11-11-11-11--7-7-7-7--14-14-14--9-9-9-9---- /
A|--9 -9 -9 -9 --5-5-5-5---12-12-12--7-7-7-7---- /
E|---------------------------------------- /

E|----------------------------------------
H|----------------------------------------
G|------------77777777----------77777777---
D|-99999999-77777777-99999999-77777777---
A|-99999999-55555555-99999999-55555555---
E|-77777777-----------77777777------------



E|-----------------------------------
H|-----------------------------------
G|-11-11-11-7--7-7-14--14-9-9-9-9---- x4
D|-11-11-11-7--7-7-14--14-9-9-9-9---- /
A|-9 --9 -9 -5--5-5-12--12-7-7-7-7---- /
E|----------------------------------- /


E|---------------------------------------------------------
H|---------------------------------------------------------
G|-11-11-11--12-12--14-14-14-14-14-14-14-14--11--11-11--12-12-12-11~9~-
D|-11-11-11--12-12--14-14-14-14-14-14-14-14--11--11-11--12-12-12-11~9~
A|-9 -9 -9 --10-10---12-12-12-12-12-12-12-12--9 --9 -9 --10-10-10--9 ~7~
E|---------------------------------------------------------


E|----------------------------------
H|----------------------------------
G|----------7-77-77---------77-7-777-
D|-9-99-99-7-77-77-9-99-99-77-7-777-
A|-9-99-99-5-55-55-9-99-99-55-5-555-
E|-7-77-77----------7-77-77----------

refrain
E|----------------------------------------
H|----------------------------------------
G|-11-11-11-11--7-7-7-7--14-14-14--9-9-9-9---- 3x
D|-11-11-11-11--7-7-7-7--14-14-14--9-9-9-9---- /
A|-9 -9 -9 -9 ----5-5-5-5--12-12-12--7-7-7-7---- /
E|---------------------------------------- /

E|-------------------------------------
H|-------------------------------------
G|------------77777777----------77777777-
D|-99999999-77777777-99999999-77777777-
A|-99999999-55555555-99999999-55555555-
E|-77777777-----------77777777----------



E|----------------------------------------
H|----------------------------------------
G|-11-11-11-11--7-7-7-7--14-14-14--9-9-9-9---- x3
D|-11-11-11-11--7-7-7-7--14-14-14--9-9-9-9---- /
A|-9 -9 -9 -9 ----5-5-5-5--12-12-12--7-7-7-7---- /
E|---------------------------------------- /

E|-------------------------------------
H|-------------------------------------
G|------------77777777----------77777777-
D|-99999999-77777777-99999999-77777777-
A|-99999999-55555555-99999999-55555555-
E|-77777777-----------77777777----------


E|-------------------------------------------------------------
H|-------------------------------------------------------------
G|-11-11-11--12-12--14-14-14-14-14-14-14-14--11--11-11-12-12-12-11~9~999-
D|-11-11-11--12-12--14-14-141-4-14-14-14-14--11--11-11-12-12-12-11~9~999-
A|-9 -9 -9 --10-10--12-12-12-12-12-12-12-12--9--9 -9 -10-10-10---9 ~7~777-

E|-------------------------------------------------------------

E|----------------------------------------------------------------------
H|----------------------------------------------------------------------
G|-11-11-11-1212-14-14-141414-141414-11--11-11-121212----77777777-
D|-11-11-11-1212-14-14-141414-141414-11--11-11-121212--9999999-77777777-
A|-9 -9 -9 -1010-12-12-121212-121212-9 --9 -9 -101010--9999999-55555555-
E|-----------------------------------------------------7777777----------

E|----------------------
H|----------------------
G|-----------77777777~--
D|-99999999-77777777~--
A|-99999999-55555555~--
E|-77777777------------
Revenir en haut Aller en bas
Voir le profil de l'utilisateur http://xXx-es-ist-vorbei-xXx.skyblog.com
Félix
Mamie du Fo'
Mamie du Fo'
avatar

Nombre de messages : 451
Age : 21
Localisation : Sur les toilettes, entrain de découpé du carton...
Date d'inscription : 26/03/2008

MessageSujet: Re: Rette Mich [Guitare]   Lun 19 Aoû - 14:58

Tokio Boîtel - 1000 merdes

Les rues sont noires
Je me dit
La lumière à grillée
Faut changer l'ampoule
Alors je dois en acheter une à Inter Marchééééé
Je suis noir
Et toi tu est blanc
Comme le jambon

Nous devons traversés 1000 merdes dans l'océan
On chie sur des truelles
Ça nous fait des briques
Comme la feuille de brique
On en fait des pizza
Aux anchois
Revenir en haut Aller en bas
Voir le profil de l'utilisateur
Félix
Mamie du Fo'
Mamie du Fo'
avatar

Nombre de messages : 451
Age : 21
Localisation : Sur les toilettes, entrain de découpé du carton...
Date d'inscription : 26/03/2008

MessageSujet: Re: Rette Mich [Guitare]   Lun 19 Aoû - 14:59

Tokio Boîtel - 1000 merdes

Les rues sont noires
Je me dit
La lumière à grillée
Faut changer l'ampoule
Alors je dois en acheter une à Inter Marchééééé
Je suis noir
Et toi tu est blanc
Comme le jambon

Nous devons traversés 1000 merdes dans l'océan
On chie sur des truelles
Ça nous fait des briques
Comme la feuille de brique
On en fait des pizza
Aux anchois
Revenir en haut Aller en bas
Voir le profil de l'utilisateur
Contenu sponsorisé




MessageSujet: Re: Rette Mich [Guitare]   

Revenir en haut Aller en bas
 
Rette Mich [Guitare]
Voir le sujet précédent Voir le sujet suivant Revenir en haut 
Page 1 sur 1
 Sujets similaires
-
» [NEWS] Nouvelle catégorie sur TH.com : karaoké ! [EDIT 07/08 : + Rette Mich)
» La Coupe De Bill
» [Photos] Pose d'un résonateur sur une guitare 'normale'
» Choix d'une guitare resonateur ..
» guitare slide indienne.

Permission de ce forum:Vous ne pouvez pas répondre aux sujets dans ce forum
Tokio Hotel in Blau :: En plus :: Partitions-
Sauter vers: